Iron Maiden - The Trooper - Bass Tab

No replies
mariam
mariam's picture
Joined: 10/05/2008
Points: 124
User offline. Last seen 7 years 39 weeks ago.

 This is a tab for bass for Iron Maiden's " The Trooper ". The Trooper is from Iron Maiden's album " Piece of Mind "and it is one of their most popular songs.

Intro 1
G|-9-9-9-7---7-7-7-5---5-5-5-3------------
D|---------9---------7--------5---5-------
A|------------------------------5---5-7---
E|----------------------------------------
 
Intro 2
G|-9-9-7---7-7-7-5---5-5-5-3--------------
D|-------9---------7---------5---5--------
A|-----------------------------5---5-7---- x2
E|----------------------------------------
 
Intro 3
G|-9-9-7---7-7-7-5---5-5-5-3--------
D|-------9---------7---------5------
A|----------------------------------
E|----------------------------------
 
Intro 4
G|-----------------------------------------------------------------------
D|---5-----------------------------5-----------------------------5-------
A|-5---5-7-7-7-7-7-7-7-7-7-7-7-7-5---5-7-7-7-7-7-7-7-7-7-7-7-7-5---5-----
E|-----------------------------------------------------------------------
 
Intro 4 (continued)
G|-------------------------------------------------------------
D|---------------------------5---------------------------------
A|-3-3-3-3-3-3-3-3-3-3-3-3-5---5-7-7-7-7-7-7-7-7-7-7-7-7------- x2
E|-------------------------------------------------------------
 
Verse
G|---------|---------|---------|---------|------
D|---5-----|---5-----|---5-----|---5-----|------
A|-5---5-7-|-5---5-7-|-5---5-3-|-5---5-7-|------
E|---------|---------|---------|---------|------
 
Intro 4
 
Chorus
G|--------------------------------------
D|--------------------------------------
A|-5-5-5-5-5-5-5-5-7-7-7-7-7-7-7-7------ x2
E|--------------------------------------
 
Break 1
G|-----------------------------------------------------------------------
D|---5-----------------------------5-----------------------------5-------
A|-5---5-7-7-7-7-7-7-7-7-7-7-7-7-5---5-7-7-7-7-7-7-7-7-7-7-7-7-5---5-----
E|-----------------------------------------------------------------------
 
Break 1 (continued)
G|---------------------------------------------------------------
D|-----------------------------3---------------------------------
A|-3-3-3-3-3-3-3-3-3-3-3-3-2-3---3-5-5-5-5-5-5-5-5-5-5-5-5------- x2
E|---------------------------------------------------------------
 
Intro 4 x2
 
Chorus x2
 
Solo
G|-----------------------------------------------------------5------7----
D|---5-----------------------------------------------------5------7------
A|-5---5-7-7-7-7-7-7-7-7-5-5-5-5-5-5-5-5-2-2-2-2-2-2-2-2-3------5--------
E|-----------------------------------------------------------------------
 
Solo 2
G|-----------------------------------------------------5------7-----
D|---------------------------------------------------5------7-------
A|-7-7-7-7-7-7-7-7-5-5-5-5-5-5-5-5-2-2-2-2-2-2-2-2-3------5--------- x3
E|------------------------------------------------------------------
 
Solo 3
G|----------------------------------------------------------------------10--------12------
D|-------------------------------------------------------------------10--------12---------
A|-12-12-12-12-12-12-12-12-10-10-10-10-10-10-10-10-7-7-7-7-7-7-7-7-8--------10------------ x3
E|----------------------------------------------------------------------------------------
 
Solo 4
G|----------------------------------------------------------------------10----
D|-------------------------------------------------------------------10-------
A|-12-12-12-12-12-12-12-12-10-10-10-10-10-10-10-10-7-7-7-7-7-7-7-7-8----------
E|----------------------------------------------------------------------------
 
Break 1 x2
 
Intro 4 2
 
Chorus x2
 
Outro 1
G|-------9-9-7---7-7-7-5---5-5-5-3-------------
D|---5---------9---------7---------5---5-------
A|-5---5-----------------------------5---5-7---
E|---------------------------------------------
 
Intro 2 x3
 
Outro 2
G|-9-9-7---7-7-7-5---5-5-5-3------------|--
D|-------9---------7---------5---5------|--
A|-----------------------------5---5-7--|-- 
E|--------------------------------------|--
 

 

tags